  0
SECTION
  2
HEADER
  9
$ACADVER
  1
AC1009
  0
ENDSEC
  0
SECTION
  2
TABLES
  0
TABLE
  2
LTYPE
 70
     3
  0
LTYPE
  2
LINETYPE_1
 70
    64
  3
See CAD-STD manual for LINETYPE_1
 72
    65
 73
     0
 40
0.000000
  0
LTYPE
  2
LINETYPE_2
 70
    64
  3
See CAD-STD manual for LINETYPE_2
 72
    65
 73
     0
 40
0.000000
  0
LTYPE
  2
LINETYPE_3
 70
    64
  3
See CAD-STD manual for LINETYPE_3
 72
    65
 73
     2
 40
0.156200
 49
0.125000
 49
-0.031200
  0
LTYPE
  2
LINETYPE_4
 70
    64
  3
See CAD-STD manual for LINETYPE_4
 72
    65
 73
     4
 40
1.000000
 49
0.750000
 49
-0.062500
 49
0.125000
 49
-0.062500
  0
LTYPE
  2
LINETYPE_5
 70
    64
  3
See CAD-STD manual for LINETYPE_5
 72
    65
 73
     2
 40
0.312500
 49
0.250000
 49
-0.062500
  0
LTYPE
  2
LINETYPE_6
 70
    64
  3
See CAD-STD manual for LINETYPE_6
 72
    65
 73
     6
 40
1.187500
 49
0.750000
 49
-0.062500
 49
0.125000
 49
-0.062500
 49
0.125000
 49
-0.062500
  0
LTYPE
  2
LINETYPE_7
 70
    64
  3
See CAD-STD manual for LINETYPE_7
 72
    65
 73
     6
 40
1.187500
 49
0.750000
 49
-0.062500
 49
0.125000
 49
-0.062500
 49
0.125000
 49
-0.062500
  0
LTYPE
  2
LINETYPE_8
 70
    64
  3
See CAD-STD manual for LINETYPE_8
 72
    65
 73
     2
 40
0.125000
 49
0.062500
 49
-0.062500
  0
LTYPE
  2
LINETYPE_9
 70
    64
  3
See CAD-STD manual for LINETYPE_9
 72
    65
 73
     2
 40
0.062500
 49
0.000100
 49
-0.062400
  0
LTYPE
  2
LINETYPE_10
 70
    64
  3
See CAD-STD manual for LINETYPE_10
 72
    65
 73
     4
 40
0.562500
 49
0.375000
 49
-0.062500
 49
0.062500
 49
-0.062500
  0
ENDTAB
  0
ENDSEC
  0
SECTION
  2
ENTITIES
  0
POLYLINE
  8
0
  6
LINETYPE_1
 66
     1
 10
0.0
 20
0.0
 30
0.0
  0
VERTEX
  8
0
 10
0.400000
 20
8.200000
 30
0.0
  0
VERTEX
  8
0
 10
6.600000
 20
8.200000
 30
0.0
  0
SEQEND
  8
0
  0
POLYLINE
  8
0
  6
LINETYPE_1
 66
     1
 10
0.0
 20
0.0
 30
0.0
  0
VERTEX
  8
0
 10
0.400000
 20
6.700000
 30
0.0
  0
VERTEX
  8
0
 10
5.900000
 20
6.700000
 30
0.0
  0
SEQEND
  8
0
  0
POLYLINE
  8
0
  6
LINETYPE_1
 66
     1
 10
0.0
 20
0.0
 30
0.0
  0
VERTEX
  8
0
 10
5.900000
 20
6.200000
 30
0.0
  0
VERTEX
  8
0
 10
0.400000
 20
6.200000
 30
0.0
  0
SEQEND
  8
0
  0
POLYLINE
  8
0
  6
LINETYPE_1
 66
     1
 10
0.0
 20
0.0
 30
0.0
  0
VERTEX
  8
0
 10
0.400000
 20
5.700000
 30
0.0
  0
VERTEX
  8
0
 10
5.800000
 20
5.700000
 30
0.0
  0
SEQEND
  8
0
  0
POLYLINE
  8
0
  6
LINETYPE_1
 66
     1
 10
0.0
 20
0.0
 30
0.0
  0
VERTEX
  8
0
 10
0.400000
 20
5.200000
 30
0.0
  0
VERTEX
  8
0
 10
5.700000
 20
5.200000
 30
0.0
  0
SEQEND
  8
0
  0
POLYLINE
  8
0
  6
LINETYPE_1
 66
     1
 10
0.0
 20
0.0
 30
0.0
  0
VERTEX
  8
0
 10
0.400000
 20
4.700000
 30
0.0
  0
VERTEX
  8
0
 10
5.600000
 20
4.700000
 30
0.0
  0
SEQEND
  8
0
  0
POLYLINE
  8
0
  6
LINETYPE_1
 66
     1
 10
0.0
 20
0.0
 30
0.0
  0
VERTEX
  8
0
 10
0.400000
 20
4.200000
 30
0.0
  0
VERTEX
  8
0
 10
5.500000
 20
4.200000
 30
0.0
  0
SEQEND
  8
0
  0
POLYLINE
  8
0
  6
LINETYPE_1
 66
     1
 10
0.0
 20
0.0
 30
0.0
  0
VERTEX
  8
0
 10
0.400000
 20
3.700000
 30
0.0
  0
VERTEX
  8
0
 10
5.500000
 20
3.700000
 30
0.0
  0
SEQEND
  8
0
  0
POLYLINE
  8
0
  6
LINETYPE_1
 66
     1
 10
0.0
 20
0.0
 30
0.0
  0
VERTEX
  8
0
 10
0.417200
 20
8.102300
 30
0.0
  0
VERTEX
  8
0
 10
0.417200
 20
8.202300
 30
0.0
  0
SEQEND
  8
0
  0
POLYLINE
  8
0
  6
LINETYPE_1
 66
     1
 10
0.0
 20
0.0
 30
0.0
  0
VERTEX
  8
0
 10
3.717200
 20
8.202300
 30
0.0
  0
VERTEX
  8
0
 10
3.717200
 20
8.202300
 30
0.0
  0
SEQEND
  8
0
  0
POLYLINE
  8
0
  6
LINETYPE_1
 66
     1
 10
0.0
 20
0.0
 30
0.0
  0
VERTEX
  8
0
 10
6.617200
 20
8.102300
 30
0.0
  0
VERTEX
  8
0
 10
6.617200
 20
8.202300
 30
0.0
  0
SEQEND
  8
0
  0
POLYLINE
  8
0
  6
LINETYPE_1
 66
     1
 10
0.0
 20
0.0
 30
0.0
  0
VERTEX
  8
0
 10
0.417000
 20
8.102000
 30
0.0
  0
VERTEX
  8
0
 10
3.267000
 20
8.102000
 30
0.0
  0
SEQEND
  8
0
  0
POLYLINE
  8
0
  6
LINETYPE_1
 66
     1
 10
0.0
 20
0.0
 30
0.0
  0
VERTEX
  8
0
 10
3.267000
 20
8.102000
 30
0.0
  0
VERTEX
  8
0
 10
3.267000
 20
8.177000
 30
0.0
  0
SEQEND
  8
0
  0
POLYLINE
  8
0
  6
LINETYPE_1
 66
     1
 10
0.0
 20
0.0
 30
0.0
  0
VERTEX
  8
0
 10
6.642000
 20
8.102000
 30
0.0
  0
VERTEX
  8
0
 10
3.792000
 20
8.102000
 30
0.0
  0
SEQEND
  8
0
  0
POLYLINE
  8
0
  6
LINETYPE_1
 66
     1
 10
0.0
 20
0.0
 30
0.0
  0
VERTEX
  8
0
 10
3.792000
 20
8.102000
 30
0.0
  0
VERTEX
  8
0
 10
3.792000
 20
8.102000
 30
0.0
  0
SEQEND
  8
0
  0
POLYLINE
  8
0
  6
LINETYPE_1
 66
     1
 10
0.0
 20
0.0
 30
0.0
  0
VERTEX
  8
0
 10
3.792000
 20
8.102000
 30
0.0
  0
VERTEX
  8
0
 10
3.792000
 20
8.177000
 30
0.0
  0
SEQEND
  8
0
  0
POLYLINE
  8
0
  6
LINETYPE_1
 66
     1
 10
0.0
 20
0.0
 30
0.0
  0
VERTEX
  8
0
 10
2.517000
 20
7.702000
 30
0.0
  0
VERTEX
  8
0
 10
2.517000
 20
7.702000
 30
0.0
  0
SEQEND
  8
0
  0
POLYLINE
  8
0
  6
LINETYPE_1
 66
     1
 10
0.0
 20
0.0
 30
0.0
  0
VERTEX
  8
0
 10
0.417000
 20
7.702000
 30
0.0
  0
VERTEX
  8
0
 10
9.717000
 20
7.702000
 30
0.0
  0
SEQEND
  8
0
  0
POLYLINE
  8
0
  6
LINETYPE_1
 66
     1
 10
0.0
 20
0.0
 30
0.0
  0
VERTEX
  8
0
 10
9.717000
 20
7.702000
 30
0.0
  0
VERTEX
  8
0
 10
9.717000
 20
7.602000
 30
0.0
  0
SEQEND
  8
0
  0
POLYLINE
  8
0
  6
LINETYPE_1
 66
     1
 10
0.0
 20
0.0
 30
0.0
  0
VERTEX
  8
0
 10
9.717000
 20
7.602000
 30
0.0
  0
VERTEX
  8
0
 10
9.217000
 20
7.602000
 30
0.0
  0
SEQEND
  8
0
  0
POLYLINE
  8
0
  6
LINETYPE_1
 66
     1
 10
0.0
 20
0.0
 30
0.0
  0
VERTEX
  8
0
 10
9.217000
 20
7.602000
 30
0.0
  0
VERTEX
  8
0
 10
9.217000
 20
7.702000
 30
0.0
  0
SEQEND
  8
0
  0
POLYLINE
  8
0
  6
LINETYPE_1
 66
     1
 10
0.0
 20
0.0
 30
0.0
  0
VERTEX
  8
0
 10
9.217000
 20
7.602000
 30
0.0
  0
VERTEX
  8
0
 10
6.617000
 20
7.602000
 30
0.0
  0
SEQEND
  8
0
  0
POLYLINE
  8
0
  6
LINETYPE_1
 66
     1
 10
0.0
 20
0.0
 30
0.0
  0
VERTEX
  8
0
 10
6.617000
 20
7.602000
 30
0.0
  0
VERTEX
  8
0
 10
6.617000
 20
7.602000
 30
0.0
  0
SEQEND
  8
0
  0
POLYLINE
  8
0
  6
LINETYPE_1
 66
     1
 10
0.0
 20
0.0
 30
0.0
  0
VERTEX
  8
0
 10
6.617000
 20
7.602000
 30
0.0
  0
VERTEX
  8
0
 10
6.617000
 20
7.702000
 30
0.0
  0
SEQEND
  8
0
  0
POLYLINE
  8
0
  6
LINETYPE_1
 66
     1
 10
0.0
 20
0.0
 30
0.0
  0
VERTEX
  8
0
 10
6.617000
 20
7.702000
 30
0.0
  0
VERTEX
  8
0
 10
6.117000
 20
7.602000
 30
0.0
  0
SEQEND
  8
0
  0
POLYLINE
  8
0
  6
LINETYPE_1
 66
     1
 10
0.0
 20
0.0
 30
0.0
  0
VERTEX
  8
0
 10
6.117000
 20
7.602000
 30
0.0
  0
VERTEX
  8
0
 10
6.117000
 20
7.602000
 30
0.0
  0
SEQEND
  8
0
  0
POLYLINE
  8
0
  6
LINETYPE_1
 66
     1
 10
0.0
 20
0.0
 30
0.0
  0
VERTEX
  8
0
 10
6.117000
 20
7.602000
 30
0.0
  0
VERTEX
  8
0
 10
6.117000
 20
7.702000
 30
0.0
  0
SEQEND
  8
0
  0
POLYLINE
  8
0
  6
LINETYPE_1
 66
     1
 10
0.0
 20
0.0
 30
0.0
  0
VERTEX
  8
0
 10
6.117000
 20
7.702000
 30
0.0
  0
VERTEX
  8
0
 10
6.617000
 20
7.602000
 30
0.0
  0
SEQEND
  8
0
  0
POLYLINE
  8
0
  6
LINETYPE_1
 66
     1
 10
0.0
 20
0.0
 30
0.0
  0
VERTEX
  8
0
 10
6.117000
 20
7.602000
 30
0.0
  0
VERTEX
  8
0
 10
3.517000
 20
7.602000
 30
0.0
  0
SEQEND
  8
0
  0
POLYLINE
  8
0
  6
LINETYPE_1
 66
     1
 10
0.0
 20
0.0
 30
0.0
  0
VERTEX
  8
0
 10
3.517000
 20
7.602000
 30
0.0
  0
VERTEX
  8
0
 10
3.517000
 20
7.702000
 30
0.0
  0
SEQEND
  8
0
  0
POLYLINE
  8
0
  6
LINETYPE_1
 66
     1
 10
0.0
 20
0.0
 30
0.0
  0
VERTEX
  8
0
 10
3.017000
 20
7.602000
 30
0.0
  0
VERTEX
  8
0
 10
3.017000
 20
7.702000
 30
0.0
  0
SEQEND
  8
0
  0
POLYLINE
  8
0
  6
LINETYPE_1
 66
     1
 10
0.0
 20
0.0
 30
0.0
  0
VERTEX
  8
0
 10
3.017000
 20
7.602000
 30
0.0
  0
VERTEX
  8
0
 10
0.417000
 20
7.602000
 30
0.0
  0
SEQEND
  8
0
  0
POLYLINE
  8
0
  6
LINETYPE_1
 66
     1
 10
0.0
 20
0.0
 30
0.0
  0
VERTEX
  8
0
 10
0.417000
 20
7.602000
 30
0.0
  0
VERTEX
  8
0
 10
0.417000
 20
7.702000
 30
0.0
  0
SEQEND
  8
0
  0
POLYLINE
  8
0
  6
LINETYPE_1
 66
     1
 10
0.0
 20
0.0
 30
0.0
  0
VERTEX
  8
0
 10
0.417000
 20
7.702000
 30
0.0
  0
VERTEX
  8
0
 10
0.517000
 20
7.702000
 30
0.0
  0
SEQEND
  8
0
  0
POLYLINE
  8
0
  6
LINETYPE_1
 66
     1
 10
0.0
 20
0.0
 30
0.0
  0
VERTEX
  8
0
 10
0.417000
 20
7.102000
 30
0.0
  0
VERTEX
  8
0
 10
0.417000
 20
7.202000
 30
0.0
  0
SEQEND
  8
0
  0
POLYLINE
  8
0
  6
LINETYPE_1
 66
     1
 10
0.0
 20
0.0
 30
0.0
  0
VERTEX
  8
0
 10
0.417000
 20
7.102000
 30
0.0
  0
VERTEX
  8
0
 10
2.967000
 20
7.102000
 30
0.0
  0
SEQEND
  8
0
  0
POLYLINE
  8
0
  6
LINETYPE_1
 66
     1
 10
0.0
 20
0.0
 30
0.0
  0
VERTEX
  8
0
 10
2.967000
 20
7.102000
 30
0.0
  0
VERTEX
  8
0
 10
2.967000
 20
7.202000
 30
0.0
  0
SEQEND
  8
0
  0
POLYLINE
  8
0
  6
LINETYPE_1
 66
     1
 10
0.0
 20
0.0
 30
0.0
  0
VERTEX
  8
0
 10
0.417000
 20
7.202000
 30
0.0
  0
VERTEX
  8
0
 10
6.017000
 20
7.202000
 30
0.0
  0
SEQEND
  8
0
  0
POLYLINE
  8
0
  6
LINETYPE_1
 66
     1
 10
0.0
 20
0.0
 30
0.0
  0
VERTEX
  8
0
 10
6.017000
 20
7.202000
 30
0.0
  0
VERTEX
  8
0
 10
6.017000
 20
7.102000
 30
0.0
  0
SEQEND
  8
0
  0
POLYLINE
  8
0
  6
LINETYPE_1
 66
     1
 10
0.0
 20
0.0
 30
0.0
  0
VERTEX
  8
0
 10
6.017000
 20
7.102000
 30
0.0
  0
VERTEX
  8
0
 10
3.467000
 20
7.102000
 30
0.0
  0
SEQEND
  8
0
  0
POLYLINE
  8
0
  6
LINETYPE_1
 66
     1
 10
0.0
 20
0.0
 30
0.0
  0
VERTEX
  8
0
 10
3.467000
 20
7.102000
 30
0.0
  0
VERTEX
  8
0
 10
3.467000
 20
7.202000
 30
0.0
  0
SEQEND
  8
0
  0
POLYLINE
  8
0
  6
LINETYPE_1
 66
     1
 10
0.0
 20
0.0
 30
0.0
  0
VERTEX
  8
0
 10
0.417000
 20
6.702000
 30
0.0
  0
VERTEX
  8
0
 10
0.417000
 20
6.602000
 30
0.0
  0
SEQEND
  8
0
  0
POLYLINE
  8
0
  6
LINETYPE_1
 66
     1
 10
0.0
 20
0.0
 30
0.0
  0
VERTEX
  8
0
 10
0.417000
 20
6.602000
 30
0.0
  0
VERTEX
  8
0
 10
2.917000
 20
6.602000
 30
0.0
  0
SEQEND
  8
0
  0
POLYLINE
  8
0
  6
LINETYPE_1
 66
     1
 10
0.0
 20
0.0
 30
0.0
  0
VERTEX
  8
0
 10
2.917000
 20
6.602000
 30
0.0
  0
VERTEX
  8
0
 10
2.917000
 20
6.702000
 30
0.0
  0
SEQEND
  8
0
  0
POLYLINE
  8
0
  6
LINETYPE_1
 66
     1
 10
0.0
 20
0.0
 30
0.0
  0
VERTEX
  8
0
 10
3.417000
 20
6.602000
 30
0.0
  0
VERTEX
  8
0
 10
3.417000
 20
6.702000
 30
0.0
  0
SEQEND
  8
0
  0
POLYLINE
  8
0
  6
LINETYPE_1
 66
     1
 10
0.0
 20
0.0
 30
0.0
  0
VERTEX
  8
0
 10
3.417000
 20
6.702000
 30
0.0
  0
VERTEX
  8
0
 10
3.417000
 20
6.702000
 30
0.0
  0
SEQEND
  8
0
  0
POLYLINE
  8
0
  6
LINETYPE_1
 66
     1
 10
0.0
 20
0.0
 30
0.0
  0
VERTEX
  8
0
 10
3.417000
 20
6.602000
 30
0.0
  0
VERTEX
  8
0
 10
5.917000
 20
6.602000
 30
0.0
  0
SEQEND
  8
0
  0
POLYLINE
  8
0
  6
LINETYPE_1
 66
     1
 10
0.0
 20
0.0
 30
0.0
  0
VERTEX
  8
0
 10
5.917000
 20
6.602000
 30
0.0
  0
VERTEX
  8
0
 10
5.917000
 20
6.702000
 30
0.0
  0
SEQEND
  8
0
  0
POLYLINE
  8
0
  6
LINETYPE_1
 66
     1
 10
0.0
 20
0.0
 30
0.0
  0
VERTEX
  8
0
 10
0.417000
 20
6.202000
 30
0.0
  0
VERTEX
  8
0
 10
0.417000
 20
6.102000
 30
0.0
  0
SEQEND
  8
0
  0
POLYLINE
  8
0
  6
LINETYPE_1
 66
     1
 10
0.0
 20
0.0
 30
0.0
  0
VERTEX
  8
0
 10
0.417000
 20
6.102000
 30
0.0
  0
VERTEX
  8
0
 10
2.917000
 20
6.102000
 30
0.0
  0
SEQEND
  8
0
  0
POLYLINE
  8
0
  6
LINETYPE_1
 66
     1
 10
0.0
 20
0.0
 30
0.0
  0
VERTEX
  8
0
 10
2.917000
 20
6.102000
 30
0.0
  0
VERTEX
  8
0
 10
2.917000
 20
6.202000
 30
0.0
  0
SEQEND
  8
0
  0
POLYLINE
  8
0
  6
LINETYPE_1
 66
     1
 10
0.0
 20
0.0
 30
0.0
  0
VERTEX
  8
0
 10
3.417000
 20
6.202000
 30
0.0
  0
VERTEX
  8
0
 10
3.417000
 20
6.102000
 30
0.0
  0
SEQEND
  8
0
  0
POLYLINE
  8
0
  6
LINETYPE_1
 66
     1
 10
0.0
 20
0.0
 30
0.0
  0
VERTEX
  8
0
 10
3.417000
 20
6.102000
 30
0.0
  0
VERTEX
  8
0
 10
5.917000
 20
6.102000
 30
0.0
  0
SEQEND
  8
0
  0
POLYLINE
  8
0
  6
LINETYPE_1
 66
     1
 10
0.0
 20
0.0
 30
0.0
  0
VERTEX
  8
0
 10
5.917000
 20
6.102000
 30
0.0
  0
VERTEX
  8
0
 10
5.917000
 20
6.202000
 30
0.0
  0
SEQEND
  8
0
  0
POLYLINE
  8
0
  6
LINETYPE_1
 66
     1
 10
0.0
 20
0.0
 30
0.0
  0
VERTEX
  8
0
 10
5.817000
 20
5.702000
 30
0.0
  0
VERTEX
  8
0
 10
5.817000
 20
5.602000
 30
0.0
  0
SEQEND
  8
0
  0
POLYLINE
  8
0
  6
LINETYPE_1
 66
     1
 10
0.0
 20
0.0
 30
0.0
  0
VERTEX
  8
0
 10
5.817000
 20
5.602000
 30
0.0
  0
VERTEX
  8
0
 10
3.367000
 20
5.602000
 30
0.0
  0
SEQEND
  8
0
  0
POLYLINE
  8
0
  6
LINETYPE_1
 66
     1
 10
0.0
 20
0.0
 30
0.0
  0
VERTEX
  8
0
 10
3.367000
 20
5.602000
 30
0.0
  0
VERTEX
  8
0
 10
3.367000
 20
5.702000
 30
0.0
  0
SEQEND
  8
0
  0
POLYLINE
  8
0
  6
LINETYPE_1
 66
     1
 10
0.0
 20
0.0
 30
0.0
  0
VERTEX
  8
0
 10
0.417000
 20
5.702000
 30
0.0
  0
VERTEX
  8
0
 10
0.417000
 20
5.602000
 30
0.0
  0
SEQEND
  8
0
  0
POLYLINE
  8
0
  6
LINETYPE_1
 66
     1
 10
0.0
 20
0.0
 30
0.0
  0
VERTEX
  8
0
 10
0.417000
 20
5.602000
 30
0.0
  0
VERTEX
  8
0
 10
2.867000
 20
5.602000
 30
0.0
  0
SEQEND
  8
0
  0
POLYLINE
  8
0
  6
LINETYPE_1
 66
     1
 10
0.0
 20
0.0
 30
0.0
  0
VERTEX
  8
0
 10
2.867000
 20
5.602000
 30
0.0
  0
VERTEX
  8
0
 10
2.867000
 20
5.702000
 30
0.0
  0
SEQEND
  8
0
  0
POLYLINE
  8
0
  6
LINETYPE_1
 66
     1
 10
0.0
 20
0.0
 30
0.0
  0
VERTEX
  8
0
 10
0.417000
 20
5.202000
 30
0.0
  0
VERTEX
  8
0
 10
0.417000
 20
5.102000
 30
0.0
  0
SEQEND
  8
0
  0
POLYLINE
  8
0
  6
LINETYPE_1
 66
     1
 10
0.0
 20
0.0
 30
0.0
  0
VERTEX
  8
0
 10
0.417000
 20
5.102000
 30
0.0
  0
VERTEX
  8
0
 10
2.817000
 20
5.102000
 30
0.0
  0
SEQEND
  8
0
  0
POLYLINE
  8
0
  6
LINETYPE_1
 66
     1
 10
0.0
 20
0.0
 30
0.0
  0
VERTEX
  8
0
 10
2.817000
 20
5.102000
 30
0.0
  0
VERTEX
  8
0
 10
2.817000
 20
5.202000
 30
0.0
  0
SEQEND
  8
0
  0
POLYLINE
  8
0
  6
LINETYPE_1
 66
     1
 10
0.0
 20
0.0
 30
0.0
  0
VERTEX
  8
0
 10
5.717000
 20
5.202000
 30
0.0
  0
VERTEX
  8
0
 10
5.717000
 20
5.102000
 30
0.0
  0
SEQEND
  8
0
  0
POLYLINE
  8
0
  6
LINETYPE_1
 66
     1
 10
0.0
 20
0.0
 30
0.0
  0
VERTEX
  8
0
 10
5.717000
 20
5.102000
 30
0.0
  0
VERTEX
  8
0
 10
3.317000
 20
5.102000
 30
0.0
  0
SEQEND
  8
0
  0
POLYLINE
  8
0
  6
LINETYPE_1
 66
     1
 10
0.0
 20
0.0
 30
0.0
  0
VERTEX
  8
0
 10
3.317000
 20
5.102000
 30
0.0
  0
VERTEX
  8
0
 10
3.317000
 20
5.202000
 30
0.0
  0
SEQEND
  8
0
  0
POLYLINE
  8
0
  6
LINETYPE_1
 66
     1
 10
0.0
 20
0.0
 30
0.0
  0
VERTEX
  8
0
 10
5.617000
 20
4.702000
 30
0.0
  0
VERTEX
  8
0
 10
5.617000
 20
4.602000
 30
0.0
  0
SEQEND
  8
0
  0
POLYLINE
  8
0
  6
LINETYPE_1
 66
     1
 10
0.0
 20
0.0
 30
0.0
  0
VERTEX
  8
0
 10
5.617000
 20
4.602000
 30
0.0
  0
VERTEX
  8
0
 10
3.267000
 20
4.602000
 30
0.0
  0
SEQEND
  8
0
  0
POLYLINE
  8
0
  6
LINETYPE_1
 66
     1
 10
0.0
 20
0.0
 30
0.0
  0
VERTEX
  8
0
 10
3.267000
 20
4.602000
 30
0.0
  0
VERTEX
  8
0
 10
3.267000
 20
4.702000
 30
0.0
  0
SEQEND
  8
0
  0
POLYLINE
  8
0
  6
LINETYPE_1
 66
     1
 10
0.0
 20
0.0
 30
0.0
  0
VERTEX
  8
0
 10
0.417000
 20
4.702000
 30
0.0
  0
VERTEX
  8
0
 10
0.417000
 20
4.602000
 30
0.0
  0
SEQEND
  8
0
  0
POLYLINE
  8
0
  6
LINETYPE_1
 66
     1
 10
0.0
 20
0.0
 30
0.0
  0
VERTEX
  8
0
 10
0.417000
 20
4.602000
 30
0.0
  0
VERTEX
  8
0
 10
2.767000
 20
4.602000
 30
0.0
  0
SEQEND
  8
0
  0
POLYLINE
  8
0
  6
LINETYPE_1
 66
     1
 10
0.0
 20
0.0
 30
0.0
  0
VERTEX
  8
0
 10
2.767000
 20
4.602000
 30
0.0
  0
VERTEX
  8
0
 10
2.767000
 20
4.702000
 30
0.0
  0
SEQEND
  8
0
  0
POLYLINE
  8
0
  6
LINETYPE_1
 66
     1
 10
0.0
 20
0.0
 30
0.0
  0
VERTEX
  8
0
 10
5.517000
 20
4.202000
 30
0.0
  0
VERTEX
  8
0
 10
5.517000
 20
4.102000
 30
0.0
  0
SEQEND
  8
0
  0
POLYLINE
  8
0
  6
LINETYPE_1
 66
     1
 10
0.0
 20
0.0
 30
0.0
  0
VERTEX
  8
0
 10
5.517000
 20
4.102000
 30
0.0
  0
VERTEX
  8
0
 10
3.217000
 20
4.102000
 30
0.0
  0
SEQEND
  8
0
  0
POLYLINE
  8
0
  6
LINETYPE_1
 66
     1
 10
0.0
 20
0.0
 30
0.0
  0
VERTEX
  8
0
 10
3.217000
 20
4.102000
 30
0.0
  0
VERTEX
  8
0
 10
3.217000
 20
4.202000
 30
0.0
  0
SEQEND
  8
0
  0
POLYLINE
  8
0
  6
LINETYPE_1
 66
     1
 10
0.0
 20
0.0
 30
0.0
  0
VERTEX
  8
0
 10
0.417000
 20
4.202000
 30
0.0
  0
VERTEX
  8
0
 10
0.417000
 20
4.102000
 30
0.0
  0
SEQEND
  8
0
  0
POLYLINE
  8
0
  6
LINETYPE_1
 66
     1
 10
0.0
 20
0.0
 30
0.0
  0
VERTEX
  8
0
 10
0.417000
 20
4.102000
 30
0.0
  0
VERTEX
  8
0
 10
2.717000
 20
4.102000
 30
0.0
  0
SEQEND
  8
0
  0
POLYLINE
  8
0
  6
LINETYPE_1
 66
     1
 10
0.0
 20
0.0
 30
0.0
  0
VERTEX
  8
0
 10
2.717000
 20
4.102000
 30
0.0
  0
VERTEX
  8
0
 10
2.717000
 20
4.202000
 30
0.0
  0
SEQEND
  8
0
  0
POLYLINE
  8
0
  6
LINETYPE_1
 66
     1
 10
0.0
 20
0.0
 30
0.0
  0
VERTEX
  8
0
 10
5.517000
 20
3.702000
 30
0.0
  0
VERTEX
  8
0
 10
5.517000
 20
3.602000
 30
0.0
  0
SEQEND
  8
0
  0
POLYLINE
  8
0
  6
LINETYPE_1
 66
     1
 10
0.0
 20
0.0
 30
0.0
  0
VERTEX
  8
0
 10
5.517000
 20
3.602000
 30
0.0
  0
VERTEX
  8
0
 10
3.217000
 20
3.602000
 30
0.0
  0
SEQEND
  8
0
  0
POLYLINE
  8
0
  6
LINETYPE_1
 66
     1
 10
0.0
 20
0.0
 30
0.0
  0
VERTEX
  8
0
 10
3.217000
 20
3.602000
 30
0.0
  0
VERTEX
  8
0
 10
3.217000
 20
3.702000
 30
0.0
  0
SEQEND
  8
0
  0
POLYLINE
  8
0
  6
LINETYPE_1
 66
     1
 10
0.0
 20
0.0
 30
0.0
  0
VERTEX
  8
0
 10
0.417000
 20
3.702000
 30
0.0
  0
VERTEX
  8
0
 10
0.417000
 20
3.602000
 30
0.0
  0
SEQEND
  8
0
  0
POLYLINE
  8
0
  6
LINETYPE_1
 66
     1
 10
0.0
 20
0.0
 30
0.0
  0
VERTEX
  8
0
 10
0.417000
 20
3.602000
 30
0.0
  0
VERTEX
  8
0
 10
2.717000
 20
3.602000
 30
0.0
  0
SEQEND
  8
0
  0
POLYLINE
  8
0
  6
LINETYPE_1
 66
     1
 10
0.0
 20
0.0
 30
0.0
  0
VERTEX
  8
0
 10
2.717000
 20
3.602000
 30
0.0
  0
VERTEX
  8
0
 10
2.717000
 20
3.702000
 30
0.0
  0
SEQEND
  8
0
  0
POLYLINE
  8
0
  6
LINETYPE_1
 66
     1
 10
0.0
 20
0.0
 30
0.0
  0
VERTEX
  8
0
 10
0.417000
 20
2.502000
 30
0.0
  0
VERTEX
  8
0
 10
0.517000
 20
2.502000
 30
0.0
  0
VERTEX
  8
0
 10
0.517000
 20
2.402000
 30
0.0
  0
VERTEX
  8
0
 10
0.417000
 20
2.402000
 30
0.0
  0
VERTEX
  8
0
 10
0.417000
 20
2.502000
 30
0.0
  0
SEQEND
  8
0
  0
POLYLINE
  8
0
  6
LINETYPE_1
 66
     1
 10
0.0
 20
0.0
 30
0.0
  0
VERTEX
  8
0
 10
0.417000
 20
2.502000
 30
0.0
  0
VERTEX
  8
0
 10
2.817000
 20
2.502000
 30
0.0
  0
SEQEND
  8
0
  0
POLYLINE
  8
0
  6
LINETYPE_1
 66
     1
 10
0.0
 20
0.0
 30
0.0
  0
VERTEX
  8
0
 10
2.817000
 20
2.502000
 30
0.0
  0
VERTEX
  8
0
 10
2.917000
 20
2.502000
 30
0.0
  0
VERTEX
  8
0
 10
2.917000
 20
2.402000
 30
0.0
  0
VERTEX
  8
0
 10
2.817000
 20
2.402000
 30
0.0
  0
VERTEX
  8
0
 10
2.817000
 20
2.502000
 30
0.0
  0
SEQEND
  8
0
  0
POLYLINE
  8
0
  6
LINETYPE_1
 66
     1
 10
0.0
 20
0.0
 30
0.0
  0
VERTEX
  8
0
 10
0.417000
 20
2.502000
 30
0.0
  0
VERTEX
  8
0
 10
4.317000
 20
2.502000
 30
0.0
  0
SEQEND
  8
0
  0
POLYLINE
  8
0
  6
LINETYPE_1
 66
     1
 10
0.0
 20
0.0
 30
0.0
  0
VERTEX
  8
0
 10
4.317000
 20
2.502000
 30
0.0
  0
VERTEX
  8
0
 10
4.417000
 20
2.502000
 30
0.0
  0
VERTEX
  8
0
 10
4.417000
 20
2.402000
 30
0.0
  0
VERTEX
  8
0
 10
4.317000
 20
2.402000
 30
0.0
  0
VERTEX
  8
0
 10
4.317000
 20
2.502000
 30
0.0
  0
SEQEND
  8
0
  0
POLYLINE
  8
0
  6
LINETYPE_1
 66
     1
 10
0.0
 20
0.0
 30
0.0
  0
VERTEX
  8
0
 10
0.417000
 20
2.502000
 30
0.0
  0
VERTEX
  8
0
 10
6.217000
 20
2.502000
 30
0.0
  0
SEQEND
  8
0
  0
POLYLINE
  8
0
  6
LINETYPE_1
 66
     1
 10
0.0
 20
0.0
 30
0.0
  0
VERTEX
  8
0
 10
6.217000
 20
2.502000
 30
0.0
  0
VERTEX
  8
0
 10
6.317000
 20
2.502000
 30
0.0
  0
VERTEX
  8
0
 10
6.317000
 20
2.402000
 30
0.0
  0
VERTEX
  8
0
 10
6.217000
 20
2.402000
 30
0.0
  0
VERTEX
  8
0
 10
6.217000
 20
2.502000
 30
0.0
  0
SEQEND
  8
0
  0
POLYLINE
  8
0
  6
LINETYPE_1
 66
     1
 10
0.0
 20
0.0
 30
0.0
  0
VERTEX
  8
0
 10
0.417000
 20
2.502000
 30
0.0
  0
VERTEX
  8
0
 10
9.417000
 20
2.502000
 30
0.0
  0
SEQEND
  8
0
  0
POLYLINE
  8
0
  6
LINETYPE_1
 66
     1
 10
0.0
 20
0.0
 30
0.0
  0
VERTEX
  8
0
 10
9.417000
 20
2.502000
 30
0.0
  0
VERTEX
  8
0
 10
9.517000
 20
2.502000
 30
0.0
  0
VERTEX
  8
0
 10
9.517000
 20
2.402000
 30
0.0
  0
VERTEX
  8
0
 10
9.417000
 20
2.402000
 30
0.0
  0
VERTEX
  8
0
 10
9.417000
 20
2.502000
 30
0.0
  0
SEQEND
  8
0
  0
POLYLINE
  8
0
  6
LINETYPE_1
 66
     1
 10
0.0
 20
0.0
 30
0.0
  0
VERTEX
  8
0
 10
0.417000
 20
2.902000
 30
0.0
  0
VERTEX
  8
0
 10
0.417000
 20
2.002000
 30
0.0
  0
SEQEND
  8
0
  0
POLYLINE
  8
0
  6
LINETYPE_1
 66
     1
 10
0.0
 20
0.0
 30
0.0
  0
VERTEX
  8
0
 10
9.517000
 20
2.202000
 30
0.0
  0
VERTEX
  8
0
 10
9.517000
 20
2.702000
 30
0.0
  0
SEQEND
  8
0
  0
POLYLINE
  8
0
  6
LINETYPE_1
 66
     1
 10
0.0
 20
0.0
 30
0.0
  0
VERTEX
  8
0
 10
0.417000
 20
1.702000
 30
0.0
  0
VERTEX
  8
0
 10
0.517000
 20
1.702000
 30
0.0
  0
VERTEX
  8
0
 10
0.517000
 20
1.602000
 30
0.0
  0
VERTEX
  8
0
 10
0.417000
 20
1.602000
 30
0.0
  0
VERTEX
  8
0
 10
0.417000
 20
1.702000
 30
0.0
  0
SEQEND
  8
0
  0
POLYLINE
  8
0
  6
LINETYPE_1
 66
     1
 10
0.0
 20
0.0
 30
0.0
  0
VERTEX
  8
0
 10
0.517000
 20
1.402000
 30
0.0
  0
VERTEX
  8
0
 10
0.517000
 20
1.902000
 30
0.0
  0
SEQEND
  8
0
  0
POLYLINE
  8
0
  6
LINETYPE_1
 66
     1
 10
0.0
 20
0.0
 30
0.0
  0
VERTEX
  8
0
 10
0.417000
 20
1.702000
 30
0.0
  0
VERTEX
  8
0
 10
3.817000
 20
1.702000
 30
0.0
  0
SEQEND
  8
0
  0
POLYLINE
  8
0
  6
LINETYPE_1
 66
     1
 10
0.0
 20
0.0
 30
0.0
  0
VERTEX
  8
0
 10
3.817000
 20
1.702000
 30
0.0
  0
VERTEX
  8
0
 10
3.917000
 20
1.702000
 30
0.0
  0
VERTEX
  8
0
 10
3.917000
 20
1.602000
 30
0.0
  0
VERTEX
  8
0
 10
3.817000
 20
1.602000
 30
0.0
  0
VERTEX
  8
0
 10
3.817000
 20
1.702000
 30
0.0
  0
SEQEND
  8
0
  0
POLYLINE
  8
0
  6
LINETYPE_1
 66
     1
 10
0.0
 20
0.0
 30
0.0
  0
VERTEX
  8
0
 10
0.417000
 20
1.702000
 30
0.0
  0
VERTEX
  8
0
 10
8.817000
 20
1.702000
 30
0.0
  0
SEQEND
  8
0
  0
POLYLINE
  8
0
  6
LINETYPE_1
 66
     1
 10
0.0
 20
0.0
 30
0.0
  0
VERTEX
  8
0
 10
8.817000
 20
1.702000
 30
0.0
  0
VERTEX
  8
0
 10
8.917000
 20
1.702000
 30
0.0
  0
VERTEX
  8
0
 10
8.917000
 20
1.602000
 30
0.0
  0
VERTEX
  8
0
 10
8.817000
 20
1.602000
 30
0.0
  0
VERTEX
  8
0
 10
8.817000
 20
1.702000
 30
0.0
  0
SEQEND
  8
0
  0
POLYLINE
  8
0
  6
LINETYPE_1
 66
     1
 10
0.0
 20
0.0
 30
0.0
  0
VERTEX
  8
0
 10
8.917000
 20
1.402000
 30
0.0
  0
VERTEX
  8
0
 10
8.917000
 20
2.002000
 30
0.0
  0
SEQEND
  8
0
  0
POLYLINE
  8
0
  6
LINETYPE_1
 66
     1
 10
0.0
 20
0.0
 30
0.0
  0
VERTEX
  8
0
 10
0.417000
 20
0.802000
 30
0.0
  0
VERTEX
  8
0
 10
0.517000
 20
0.802000
 30
0.0
  0
VERTEX
  8
0
 10
0.517000
 20
0.702000
 30
0.0
  0
VERTEX
  8
0
 10
0.417000
 20
0.702000
 30
0.0
  0
VERTEX
  8
0
 10
0.417000
 20
0.802000
 30
0.0
  0
SEQEND
  8
0
  0
POLYLINE
  8
0
  6
LINETYPE_1
 66
     1
 10
0.0
 20
0.0
 30
0.0
  0
VERTEX
  8
0
 10
0.517000
 20
0.502000
 30
0.0
  0
VERTEX
  8
0
 10
0.517000
 20
1.102000
 30
0.0
  0
SEQEND
  8
0
  0
POLYLINE
  8
0
  6
LINETYPE_1
 66
     1
 10
0.0
 20
0.0
 30
0.0
  0
VERTEX
  8
0
 10
0.417000
 20
0.802000
 30
0.0
  0
VERTEX
  8
0
 10
5.417000
 20
0.802000
 30
0.0
  0
SEQEND
  8
0
  0
POLYLINE
  8
0
  6
LINETYPE_1
 66
     1
 10
0.0
 20
0.0
 30
0.0
  0
VERTEX
  8
0
 10
5.417000
 20
0.802000
 30
0.0
  0
VERTEX
  8
0
 10
5.517000
 20
0.802000
 30
0.0
  0
VERTEX
  8
0
 10
5.517000
 20
0.702000
 30
0.0
  0
VERTEX
  8
0
 10
5.417000
 20
0.702000
 30
0.0
  0
VERTEX
  8
0
 10
5.417000
 20
0.802000
 30
0.0
  0
SEQEND
  8
0
  0
POLYLINE
  8
0
  6
LINETYPE_1
 66
     1
 10
0.0
 20
0.0
 30
0.0
  0
VERTEX
  8
0
 10
0.417000
 20
0.802000
 30
0.0
  0
VERTEX
  8
0
 10
10.617000
 20
0.802000
 30
0.0
  0
SEQEND
  8
0
  0
POLYLINE
  8
0
  6
LINETYPE_1
 66
     1
 10
0.0
 20
0.0
 30
0.0
  0
VERTEX
  8
0
 10
10.617000
 20
0.802000
 30
0.0
  0
VERTEX
  8
0
 10
10.717000
 20
0.802000
 30
0.0
  0
VERTEX
  8
0
 10
10.717000
 20
0.702000
 30
0.0
  0
VERTEX
  8
0
 10
10.617000
 20
0.702000
 30
0.0
  0
VERTEX
  8
0
 10
10.617000
 20
0.802000
 30
0.0
  0
SEQEND
  8
0
  0
POLYLINE
  8
0
  6
LINETYPE_1
 66
     1
 10
0.0
 20
0.0
 30
0.0
  0
VERTEX
  8
0
 10
10.717000
 20
0.602000
 30
0.0
  0
VERTEX
  8
0
 10
10.717000
 20
0.902000
 30
0.0
  0
SEQEND
  8
0
  0
POLYLINE
  8
0
  6
LINETYPE_1
 66
     1
 10
0.0
 20
0.0
 30
0.0
  0
VERTEX
  8
0
 10
0.517000
 20
0.202000
 30
0.0
  0
VERTEX
  8
0
 10
0.517000
 20
0.402000
 30
0.0
  0
SEQEND
  8
0
  0
POLYLINE
  8
0
  6
LINETYPE_1
 66
     1
 10
0.0
 20
0.0
 30
0.0
  0
VERTEX
  8
0
 10
0.417000
 20
0.302000
 30
0.0
  0
VERTEX
  8
0
 10
0.517000
 20
0.302000
 30
0.0
  0
VERTEX
  8
0
 10
0.517000
 20
0.202000
 30
0.0
  0
VERTEX
  8
0
 10
0.417000
 20
0.202000
 30
0.0
  0
VERTEX
  8
0
 10
0.417000
 20
0.302000
 30
0.0
  0
SEQEND
  8
0
  0
POLYLINE
  8
0
  6
LINETYPE_1
 66
     1
 10
0.0
 20
0.0
 30
0.0
  0
VERTEX
  8
0
 10
0.417000
 20
0.302000
 30
0.0
  0
VERTEX
  8
0
 10
5.817000
 20
0.302000
 30
0.0
  0
SEQEND
  8
0
  0
POLYLINE
  8
0
  6
LINETYPE_1
 66
     1
 10
0.0
 20
0.0
 30
0.0
  0
VERTEX
  8
0
 10
5.817000
 20
0.302000
 30
0.0
  0
VERTEX
  8
0
 10
5.917000
 20
0.302000
 30
0.0
  0
VERTEX
  8
0
 10
5.917000
 20
0.202000
 30
0.0
  0
VERTEX
  8
0
 10
5.817000
 20
0.202000
 30
0.0
  0
VERTEX
  8
0
 10
5.817000
 20
0.302000
 30
0.0
  0
SEQEND
  8
0
  0
ENDSEC
  0
EOF
